ISO-10303-21;
HEADER;
FILE_DESCRIPTION (( 'STEP AP203' ),
    '1' );
FILE_NAME ('Q-AZHWP-20-405-M.STEP',
    '2020-12-22T09:08:22',
    ( '' ),
    ( '' ),
    'SwSTEP 2.0',
    'SolidWorks 2020',
    '' );
FILE_SCHEMA (( 'CONFIG_CONTROL_DESIGN' ));
ENDSEC;

DATA;
#1 = EDGE_CURVE ( 'NONE', #55, #31, #46, .T. ) ;
#2 = APPROVAL_PERSON_ORGANIZATION ( #65, #204, #69 ) ;
#3 = CARTESIAN_POINT ( 'NONE',  ( 2.500000000000000888, 1.224646799147353256E-15, -10.00000000000000000 ) ) ;
#4 = DIRECTION ( 'NONE',  ( -1.000000000000000000, -0.000000000000000000, -0.000000000000000000 ) ) ;
#5 = DIRECTION ( 'NONE',  ( 0.000000000000000000, 0.000000000000000000, 1.000000000000000000 ) ) ;
#6 = CC_DESIGN_PERSON_AND_ORGANIZATION_ASSIGNMENT ( #110, #64, ( #182 ) ) ;
#7 = EDGE_LOOP ( 'NONE', ( #259, #298, #156, #216 ) ) ;
#8 = DIRECTION ( 'NONE',  ( -1.000000000000000000, -0.000000000000000000, -0.000000000000000000 ) ) ;
#9 = EDGE_LOOP ( 'NONE', ( #209, #265 ) ) ;
#10 = CARTESIAN_POINT ( 'NONE',  ( -3.000000000000000000, 1.555301434917138433E-15, -12.69999999999999929 ) ) ;
#11 = ORIENTED_EDGE ( 'NONE', *, *, #48, .T. ) ;
#12 = ORIENTED_EDGE ( 'NONE', *, *, #144, .F. ) ;
#13 = CIRCLE ( 'NONE', #192, 10.00000000000000000 ) ;
#14 = AXIS2_PLACEMENT_3D ( 'NONE', #183, #317, #260 ) ;
#15 =( NAMED_UNIT ( * ) SI_UNIT ( $, .STERADIAN. ) SOLID_ANGLE_UNIT ( ) );
#16 = EDGE_CURVE ( 'NONE', #150, #76, #228, .T. ) ;
#17 = CARTESIAN_POINT ( 'NONE',  ( -2.500000000000000444, 1.224646799147353256E-15, -10.00000000000000000 ) ) ;
#18 = DATE_TIME_ROLE ( 'creation_date' ) ;
#19 = LINE ( 'NONE', #188, #82 ) ;
#20 = DIRECTION ( 'NONE',  ( 1.000000000000000000, 0.000000000000000000, 0.000000000000000000 ) ) ;
#21 = CARTESIAN_POINT ( 'NONE',  ( -1.614212418857619014, 0.000000000000000000, 0.000000000000000000 ) ) ;
#22 = DESIGN_CONTEXT ( 'detailed design', #302, 'design' ) ;
#23 = APPROVAL_DATE_TIME ( #196, #204 ) ;
#24 = AXIS2_PLACEMENT_3D ( 'NONE', #73, #97, #30 ) ;
#25 = DIRECTION ( 'NONE',  ( -1.000000000000000000, 0.000000000000000000, -0.000000000000000000 ) ) ;
#26 = PLANE ( 'NONE',  #96 ) ;
#27 = EDGE_CURVE ( 'NONE', #133, #256, #201, .T. ) ;
#28 = LINE ( 'NONE', #119, #291 ) ;
#29 = VECTOR ( 'NONE', #103, 1000.000000000000000 ) ;
#30 = DIRECTION ( 'NONE',  ( 0.000000000000000000, 0.000000000000000000, -1.000000000000000000 ) ) ;
#31 = VERTEX_POINT ( 'NONE', #49 ) ;
#32 = AXIS2_PLACEMENT_3D ( 'NONE', #301, #271, #143 ) ;
#33 = CARTESIAN_POINT ( 'NONE',  ( -3.000000000000000000, 10.00000000000000000, 0.000000000000000000 ) ) ;
#34 = ORIENTED_EDGE ( 'NONE', *, *, #63, .F. ) ;
#35 = CARTESIAN_POINT ( 'NONE',  ( -3.000000000000000000, 0.000000000000000000, 12.69999999999999929 ) ) ;
#36 = ADVANCED_FACE ( 'NONE', ( #330 ), #109, .F. ) ;
#37 = EDGE_LOOP ( 'NONE', ( #325, #210, #34, #207 ) ) ;
#38 = PRODUCT_RELATED_PRODUCT_CATEGORY ( 'detail', '', ( #182 ) ) ;
#39 = PLANE ( 'NONE',  #213 ) ;
#40 = ORIENTED_EDGE ( 'NONE', *, *, #125, .F. ) ;
#41 = UNCERTAINTY_MEASURE_WITH_UNIT (LENGTH_MEASURE( 1.000000000000000082E-05 ), #131, 'distance_accuracy_value', 'NONE');
#42 = EDGE_LOOP ( 'NONE', ( #212, #323 ) ) ;
#43 = AXIS2_PLACEMENT_3D ( 'NONE', #120, #71, #167 ) ;
#44 = DIRECTION ( 'NONE',  ( 0.000000000000000000, 0.000000000000000000, 1.000000000000000000 ) ) ;
#45 = APPROVAL_DATE_TIME ( #118, #100 ) ;
#46 = CIRCLE ( 'NONE', #320, 10.00000000000000000 ) ;
#47 = AXIS2_PLACEMENT_3D ( 'NONE', #233, #101, #106 ) ;
#48 = EDGE_CURVE ( 'NONE', #133, #315, #19, .T. ) ;
#49 = CARTESIAN_POINT ( 'NONE',  ( -3.000000000000000444, 1.224646799147353256E-15, -10.00000000000000000 ) ) ;
#50 = DIRECTION ( 'NONE',  ( 0.000000000000000000, 0.000000000000000000, 1.000000000000000000 ) ) ;
#51 = CARTESIAN_POINT ( 'NONE',  ( -1.614212418857619014, 0.000000000000000000, 0.000000000000000000 ) ) ;
#52 = CARTESIAN_POINT ( 'NONE',  ( -2.500000000000000444, 0.000000000000000000, 10.00000000000000000 ) ) ;
#53 = AXIS2_PLACEMENT_3D ( 'NONE', #113, #221, #90 ) ;
#54 = DIRECTION ( 'NONE',  ( 0.000000000000000000, 0.000000000000000000, 1.000000000000000000 ) ) ;
#55 = VERTEX_POINT ( 'NONE', #269 ) ;
#56 = VERTEX_POINT ( 'NONE', #17 ) ;
#57 = CARTESIAN_POINT ( 'NONE',  ( 3.000000000000000000, 1.555301434917138433E-15, -12.69999999999999929 ) ) ;
#58 = ORIENTED_EDGE ( 'NONE', *, *, #68, .T. ) ;
#59 = LINE ( 'NONE', #214, #262 ) ;
#60 = CARTESIAN_POINT ( 'NONE',  ( -1.614212418857619014, 0.000000000000000000, 0.000000000000000000 ) ) ;
#61 = ORIENTED_EDGE ( 'NONE', *, *, #70, .F. ) ;
#62 = ORIENTED_EDGE ( 'NONE', *, *, #16, .T. ) ;
#63 = EDGE_CURVE ( 'NONE', #315, #258, #275, .T. ) ;
#64 = PERSON_AND_ORGANIZATION_ROLE ( 'design_owner' ) ;
#65 = PERSON_AND_ORGANIZATION ( #159, #239 ) ;
#66 = CC_DESIGN_APPROVAL ( #252, ( #154 ) ) ;
#67 = COORDINATED_UNIVERSAL_TIME_OFFSET ( 8, 0, .AHEAD. ) ;
#68 = EDGE_CURVE ( 'NONE', #256, #133, #171, .T. ) ;
#69 = APPROVAL_ROLE ( '' ) ;
#70 = EDGE_CURVE ( 'NONE', #56, #107, #160, .T. ) ;
#71 = DIRECTION ( 'NONE',  ( -1.000000000000000000, -0.000000000000000000, -0.000000000000000000 ) ) ;
#72 = ADVANCED_FACE ( 'NONE', ( #223 ), #26, .F. ) ;
#73 = CARTESIAN_POINT ( 'NONE',  ( -2.500000000000000444, 0.000000000000000000, 0.000000000000000000 ) ) ;
#74 = CIRCLE ( 'NONE', #116, 10.00000000000000000 ) ;
#75 = CYLINDRICAL_SURFACE ( 'NONE', #179, 12.69999999999999929 ) ;
#76 = VERTEX_POINT ( 'NONE', #202 ) ;
#77 = LINE ( 'NONE', #178, #29 ) ;
#78 = CARTESIAN_POINT ( 'NONE',  ( -3.000000000000000444, 0.000000000000000000, 0.000000000000000000 ) ) ;
#79 = DIRECTION ( 'NONE',  ( -1.000000000000000000, -0.000000000000000000, -0.000000000000000000 ) ) ;
#80 = EDGE_CURVE ( 'NONE', #102, #150, #28, .T. ) ;
#81 = ORIENTED_EDGE ( 'NONE', *, *, #80, .T. ) ;
#82 = VECTOR ( 'NONE', #328, 1000.000000000000000 ) ;
#83 = CARTESIAN_POINT ( 'NONE',  ( -1.614212418857619014, 0.000000000000000000, 0.000000000000000000 ) ) ;
#84 = LOCAL_TIME ( 17, 8, 22.00000000000000000, #250 ) ;
#85 = EDGE_LOOP ( 'NONE', ( #40, #58, #11, #12 ) ) ;
#86 = PRODUCT_DEFINITION_FORMATION_WITH_SPECIFIED_SOURCE ( 'ANY', '', #182, .NOT_KNOWN. ) ;
#87 = CALENDAR_DATE ( 2020, 22, 12 ) ;
#88 = CALENDAR_DATE ( 2020, 22, 12 ) ;
#89 = APPROVAL_STATUS ( 'not_yet_approved' ) ;
#90 = DIRECTION ( 'NONE',  ( 0.000000000000000000, 0.000000000000000000, 1.000000000000000000 ) ) ;
#91 = SECURITY_CLASSIFICATION_LEVEL ( 'unclassified' ) ;
#92 = CARTESIAN_POINT ( 'NONE',  ( -1.614212418857619014, 1.555301434917138433E-15, -12.69999999999999929 ) ) ;
#93 = FACE_OUTER_BOUND ( 'NONE', #174, .T. ) ;
#94 = DIRECTION ( 'NONE',  ( 0.000000000000000000, 0.000000000000000000, -1.000000000000000000 ) ) ;
#95 = LOCAL_TIME ( 17, 8, 22.00000000000000000, #219 ) ;
#96 = AXIS2_PLACEMENT_3D ( 'NONE', #277, #195, #304 ) ;
#97 = DIRECTION ( 'NONE',  ( 1.000000000000000000, 0.000000000000000000, 0.000000000000000000 ) ) ;
#98 = FACE_BOUND ( 'NONE', #9, .T. ) ;
#99 = ORIENTED_EDGE ( 'NONE', *, *, #172, .T. ) ;
#100 = APPROVAL ( #111, 'UNSPECIFIED' ) ;
#101 = DIRECTION ( 'NONE',  ( -1.000000000000000000, 0.000000000000000000, -0.000000000000000000 ) ) ;
#102 = VERTEX_POINT ( 'NONE', #164 ) ;
#103 = DIRECTION ( 'NONE',  ( -1.000000000000000000, -0.000000000000000000, -0.000000000000000000 ) ) ;
#104 = ORIENTED_EDGE ( 'NONE', *, *, #231, .T. ) ;
#105 = APPROVAL_PERSON_ORGANIZATION ( #139, #100, #333 ) ;
#106 = DIRECTION ( 'NONE',  ( -0.000000000000000000, 0.000000000000000000, 1.000000000000000000 ) ) ;
#107 = VERTEX_POINT ( 'NONE', #52 ) ;
#108 = APPLICATION_PROTOCOL_DEFINITION ( 'international standard', 'config_control_design', 1994, #302 ) ;
#109 = CYLINDRICAL_SURFACE ( 'NONE', #206, 10.00000000000000000 ) ;
#110 = PERSON_AND_ORGANIZATION ( #159, #239 ) ;
#111 = APPROVAL_STATUS ( 'not_yet_approved' ) ;
#112 = CARTESIAN_POINT ( 'NONE',  ( 0.000000000000000000, 0.000000000000000000, 0.000000000000000000 ) ) ;
#113 = CARTESIAN_POINT ( 'NONE',  ( -3.000000000000000000, 0.000000000000000000, 0.000000000000000000 ) ) ;
#114 = PERSON_AND_ORGANIZATION ( #159, #239 ) ;
#115 = ADVANCED_FACE ( 'NONE', ( #203 ), #169, .T. ) ;
#116 = AXIS2_PLACEMENT_3D ( 'NONE', #197, #4, #149 ) ;
#117 = LINE ( 'NONE', #334, #247 ) ;
#118 = DATE_AND_TIME ( #88, #128 ) ;
#119 = CARTESIAN_POINT ( 'NONE',  ( -1.614212418857619014, 1.224646799147353256E-15, -10.00000000000000000 ) ) ;
#120 = CARTESIAN_POINT ( 'NONE',  ( 2.999999999999999112, 0.000000000000000000, 0.000000000000000000 ) ) ;
#121 = CC_DESIGN_APPROVAL ( #100, ( #276 ) ) ;
#122 = DIRECTION ( 'NONE',  ( -1.000000000000000000, -0.000000000000000000, -0.000000000000000000 ) ) ;
#123 = CARTESIAN_POINT ( 'NONE',  ( 2.999999999999999112, 0.000000000000000000, 10.00000000000000000 ) ) ;
#124 = ORIENTED_EDGE ( 'NONE', *, *, #147, .T. ) ;
#125 = EDGE_CURVE ( 'NONE', #256, #258, #282, .T. ) ;
#126 = AXIS2_PLACEMENT_3D ( 'NONE', #51, #335, #200 ) ;
#127 = ORIENTED_EDGE ( 'NONE', *, *, #198, .T. ) ;
#128 = LOCAL_TIME ( 17, 8, 22.00000000000000000, #141 ) ;
#129 = FACE_OUTER_BOUND ( 'NONE', #240, .T. ) ;
#130 = ORIENTED_EDGE ( 'NONE', *, *, #70, .T. ) ;
#131 =( LENGTH_UNIT ( ) NAMED_UNIT ( * ) SI_UNIT ( .MILLI., .METRE. ) );
#132 = EDGE_LOOP ( 'NONE', ( #232, #61 ) ) ;
#133 = VERTEX_POINT ( 'NONE', #163 ) ;
#134 = DIRECTION ( 'NONE',  ( 0.000000000000000000, 0.000000000000000000, 1.000000000000000000 ) ) ;
#135 = LOCAL_TIME ( 17, 8, 22.00000000000000000, #246 ) ;
#136 = AXIS2_PLACEMENT_3D ( 'NONE', #274, #308, #54 ) ;
#137 = MECHANICAL_CONTEXT ( 'NONE', #230, 'mechanical' ) ;
#138 = CARTESIAN_POINT ( 'NONE',  ( 2.500000000000000888, 0.000000000000000000, 0.000000000000000000 ) ) ;
#139 = PERSON_AND_ORGANIZATION ( #159, #239 ) ;
#140 = CARTESIAN_POINT ( 'NONE',  ( 2.999999999999999112, 12.69999999999999929, 0.000000000000000000 ) ) ;
#141 = COORDINATED_UNIVERSAL_TIME_OFFSET ( 8, 0, .AHEAD. ) ;
#142 = CIRCLE ( 'NONE', #136, 12.69999999999999929 ) ;
#143 = DIRECTION ( 'NONE',  ( 0.000000000000000000, 0.000000000000000000, 1.000000000000000000 ) ) ;
#144 = EDGE_CURVE ( 'NONE', #258, #315, #142, .T. ) ;
#145 = FACE_BOUND ( 'NONE', #175, .T. ) ;
#146 = EDGE_CURVE ( 'NONE', #76, #150, #13, .T. ) ;
#147 = EDGE_CURVE ( 'NONE', #295, #102, #238, .T. ) ;
#148 = AXIS2_PLACEMENT_3D ( 'NONE', #297, #220, #134 ) ;
#149 = DIRECTION ( 'NONE',  ( 0.000000000000000000, 0.000000000000000000, 1.000000000000000000 ) ) ;
#150 = VERTEX_POINT ( 'NONE', #3 ) ;
#151 = CYLINDRICAL_SURFACE ( 'NONE', #253, 10.00000000000000000 ) ;
#152 = ORIENTED_EDGE ( 'NONE', *, *, #244, .T. ) ;
#153 =( NAMED_UNIT ( * ) PLANE_ANGLE_UNIT ( ) SI_UNIT ( $, .RADIAN. ) );
#154 = PRODUCT_DEFINITION ( 'UNKNOWN', '', #86, #22 ) ;
#155 = ORIENTED_EDGE ( 'NONE', *, *, #215, .F. ) ;
#156 = ORIENTED_EDGE ( 'NONE', *, *, #215, .T. ) ;
#157 = CIRCLE ( 'NONE', #24, 10.00000000000000000 ) ;
#158 = DIRECTION ( 'NONE',  ( 0.000000000000000000, 0.000000000000000000, 1.000000000000000000 ) ) ;
#159 = PERSON ( 'UNSPECIFIED', 'UNSPECIFIED', 'UNSPECIFIED', ('UNSPECIFIED'), ('UNSPECIFIED'), ('UNSPECIFIED') ) ;
#160 = CIRCLE ( 'NONE', #307, 10.00000000000000000 ) ;
#161 = DATE_AND_TIME ( #243, #135 ) ;
#162 = CC_DESIGN_PERSON_AND_ORGANIZATION_ASSIGNMENT ( #114, #199, ( #86 ) ) ;
#163 = CARTESIAN_POINT ( 'NONE',  ( 3.000000000000000000, 0.000000000000000000, 12.69999999999999929 ) ) ;
#164 = CARTESIAN_POINT ( 'NONE',  ( 2.999999999999999112, 1.224646799147353256E-15, -10.00000000000000000 ) ) ;
#165 = AXIS2_PLACEMENT_3D ( 'NONE', #138, #266, #44 ) ;
#166 = CALENDAR_DATE ( 2020, 22, 12 ) ;
#167 = DIRECTION ( 'NONE',  ( 0.000000000000000000, 0.000000000000000000, 1.000000000000000000 ) ) ;
#168 = ADVANCED_FACE ( 'NONE', ( #279, #145 ), #251, .F. ) ;
#169 = CYLINDRICAL_SURFACE ( 'NONE', #126, 12.69999999999999929 ) ;
#170 = CARTESIAN_POINT ( 'NONE',  ( -2.500000000000000444, 0.000000000000000000, 0.000000000000000000 ) ) ;
#171 = CIRCLE ( 'NONE', #32, 12.69999999999999929 ) ;
#172 = EDGE_CURVE ( 'NONE', #31, #55, #74, .T. ) ;
#173 = DIRECTION ( 'NONE',  ( -1.000000000000000000, -0.000000000000000000, -0.000000000000000000 ) ) ;
#174 = EDGE_LOOP ( 'NONE', ( #313, #130, #316, #285 ) ) ;
#175 = EDGE_LOOP ( 'NONE', ( #124, #104 ) ) ;
#176 = FACE_OUTER_BOUND ( 'NONE', #235, .T. ) ;
#177 = DIRECTION ( 'NONE',  ( -1.000000000000000000, -0.000000000000000000, -0.000000000000000000 ) ) ;
#178 = CARTESIAN_POINT ( 'NONE',  ( -1.614212418857619014, 1.224646799147353256E-15, -10.00000000000000000 ) ) ;
#179 = AXIS2_PLACEMENT_3D ( 'NONE', #314, #211, #312 ) ;
#180 = AXIS2_PLACEMENT_3D ( 'NONE', #112, #241, #20 ) ;
#181 = ORIENTED_EDGE ( 'NONE', *, *, #231, .F. ) ;
#182 = PRODUCT ( 'Q-AZHWP-20-405-M', 'Q-AZHWP-20-405-M', '', ( #137 ) ) ;
#183 = CARTESIAN_POINT ( 'NONE',  ( -1.614212418857619014, 0.000000000000000000, 0.000000000000000000 ) ) ;
#184 = EDGE_LOOP ( 'NONE', ( #234, #237 ) ) ;
#185 = CC_DESIGN_PERSON_AND_ORGANIZATION_ASSIGNMENT ( #331, #245, ( #86 ) ) ;
#186 = ORIENTED_EDGE ( 'NONE', *, *, #146, .F. ) ;
#187 = PERSON_AND_ORGANIZATION ( #159, #239 ) ;
#188 = CARTESIAN_POINT ( 'NONE',  ( -1.614212418857619014, 0.000000000000000000, 12.69999999999999929 ) ) ;
#189 = DATE_AND_TIME ( #278, #226 ) ;
#190 = DIRECTION ( 'NONE',  ( -1.000000000000000000, -0.000000000000000000, -0.000000000000000000 ) ) ;
#191 = CC_DESIGN_DATE_AND_TIME_ASSIGNMENT ( #189, #270, ( #276 ) ) ;
#192 = AXIS2_PLACEMENT_3D ( 'NONE', #248, #311, #50 ) ;
#193 = APPROVAL_DATE_TIME ( #299, #252 ) ;
#194 = AXIS2_PLACEMENT_3D ( 'NONE', #83, #79, #5 ) ;
#195 = DIRECTION ( 'NONE',  ( 1.000000000000000000, 0.000000000000000000, 0.000000000000000000 ) ) ;
#196 = DATE_AND_TIME ( #166, #84 ) ;
#197 = CARTESIAN_POINT ( 'NONE',  ( -3.000000000000000444, 0.000000000000000000, 0.000000000000000000 ) ) ;
#198 = EDGE_CURVE ( 'NONE', #107, #56, #157, .T. ) ;
#199 = PERSON_AND_ORGANIZATION_ROLE ( 'creator' ) ;
#200 = DIRECTION ( 'NONE',  ( 0.000000000000000000, 0.000000000000000000, 1.000000000000000000 ) ) ;
#201 = CIRCLE ( 'NONE', #148, 12.69999999999999929 ) ;
#202 = CARTESIAN_POINT ( 'NONE',  ( 2.500000000000000888, 0.000000000000000000, 10.00000000000000000 ) ) ;
#203 = FACE_OUTER_BOUND ( 'NONE', #37, .T. ) ;
#204 = APPROVAL ( #249, 'UNSPECIFIED' ) ;
#205 = CARTESIAN_POINT ( 'NONE',  ( 2.999999999999999112, 0.000000000000000000, 0.000000000000000000 ) ) ;
#206 = AXIS2_PLACEMENT_3D ( 'NONE', #21, #190, #242 ) ;
#207 = ORIENTED_EDGE ( 'NONE', *, *, #48, .F. ) ;
#208 = DIRECTION ( 'NONE',  ( 0.000000000000000000, 0.000000000000000000, -1.000000000000000000 ) ) ;
#209 = ORIENTED_EDGE ( 'NONE', *, *, #1, .F. ) ;
#210 = ORIENTED_EDGE ( 'NONE', *, *, #125, .T. ) ;
#211 = DIRECTION ( 'NONE',  ( -1.000000000000000000, -0.000000000000000000, -0.000000000000000000 ) ) ;
#212 = ORIENTED_EDGE ( 'NONE', *, *, #27, .F. ) ;
#213 = AXIS2_PLACEMENT_3D ( 'NONE', #33, #236, #208 ) ;
#214 = CARTESIAN_POINT ( 'NONE',  ( -1.614212418857619014, 0.000000000000000000, 10.00000000000000000 ) ) ;
#215 = EDGE_CURVE ( 'NONE', #295, #76, #117, .T. ) ;
#216 = ORIENTED_EDGE ( 'NONE', *, *, #146, .T. ) ;
#217 = APPROVAL_ROLE ( '' ) ;
#218 = ADVANCED_FACE ( 'NONE', ( #93 ), #305, .F. ) ;
#219 = COORDINATED_UNIVERSAL_TIME_OFFSET ( 8, 0, .AHEAD. ) ;
#220 = DIRECTION ( 'NONE',  ( -1.000000000000000000, -0.000000000000000000, -0.000000000000000000 ) ) ;
#221 = DIRECTION ( 'NONE',  ( -1.000000000000000000, -0.000000000000000000, -0.000000000000000000 ) ) ;
#222 = AXIS2_PLACEMENT_3D ( 'NONE', #140, #25, #227 ) ;
#223 = FACE_OUTER_BOUND ( 'NONE', #132, .T. ) ;
#224 = SHAPE_DEFINITION_REPRESENTATION ( #296, #309 ) ;
#225 = PERSON_AND_ORGANIZATION ( #159, #239 ) ;
#226 = LOCAL_TIME ( 17, 8, 22.00000000000000000, #67 ) ;
#227 = DIRECTION ( 'NONE',  ( -0.000000000000000000, 0.000000000000000000, 1.000000000000000000 ) ) ;
#228 = CIRCLE ( 'NONE', #165, 10.00000000000000000 ) ;
#229 = ADVANCED_FACE ( 'NONE', ( #176 ), #294, .F. ) ;
#230 = APPLICATION_CONTEXT ( 'configuration controlled 3d designs of mechanical parts and assemblies' ) ;
#231 = EDGE_CURVE ( 'NONE', #102, #295, #281, .T. ) ;
#232 = ORIENTED_EDGE ( 'NONE', *, *, #198, .F. ) ;
#233 = CARTESIAN_POINT ( 'NONE',  ( 2.500000000000000444, 10.00000000000000000, 0.000000000000000000 ) ) ;
#234 = ORIENTED_EDGE ( 'NONE', *, *, #63, .T. ) ;
#235 = EDGE_LOOP ( 'NONE', ( #127, #152, #99, #284 ) ) ;
#236 = DIRECTION ( 'NONE',  ( 1.000000000000000000, 0.000000000000000000, 0.000000000000000000 ) ) ;
#237 = ORIENTED_EDGE ( 'NONE', *, *, #144, .T. ) ;
#238 = CIRCLE ( 'NONE', #43, 10.00000000000000000 ) ;
#239 = ORGANIZATION ( 'UNSPECIFIED', 'UNSPECIFIED', '' ) ;
#240 = EDGE_LOOP ( 'NONE', ( #186, #288 ) ) ;
#241 = DIRECTION ( 'NONE',  ( 0.000000000000000000, 0.000000000000000000, 1.000000000000000000 ) ) ;
#242 = DIRECTION ( 'NONE',  ( 0.000000000000000000, 0.000000000000000000, 1.000000000000000000 ) ) ;
#243 = CALENDAR_DATE ( 2020, 22, 12 ) ;
#244 = EDGE_CURVE ( 'NONE', #56, #31, #77, .T. ) ;
#245 = PERSON_AND_ORGANIZATION_ROLE ( 'design_supplier' ) ;
#246 = COORDINATED_UNIVERSAL_TIME_OFFSET ( 8, 0, .AHEAD. ) ;
#247 = VECTOR ( 'NONE', #122, 1000.000000000000000 ) ;
#248 = CARTESIAN_POINT ( 'NONE',  ( 2.500000000000000888, 0.000000000000000000, 0.000000000000000000 ) ) ;
#249 = APPROVAL_STATUS ( 'not_yet_approved' ) ;
#250 = COORDINATED_UNIVERSAL_TIME_OFFSET ( 8, 0, .AHEAD. ) ;
#251 = PLANE ( 'NONE',  #222 ) ;
#252 = APPROVAL ( #89, 'UNSPECIFIED' ) ;
#253 = AXIS2_PLACEMENT_3D ( 'NONE', #60, #173, #255 ) ;
#254 = DIRECTION ( 'NONE',  ( -1.000000000000000000, -0.000000000000000000, -0.000000000000000000 ) ) ;
#255 = DIRECTION ( 'NONE',  ( 0.000000000000000000, 0.000000000000000000, 1.000000000000000000 ) ) ;
#256 = VERTEX_POINT ( 'NONE', #57 ) ;
#257 = DIRECTION ( 'NONE',  ( -1.000000000000000000, -0.000000000000000000, -0.000000000000000000 ) ) ;
#258 = VERTEX_POINT ( 'NONE', #10 ) ;
#259 = ORIENTED_EDGE ( 'NONE', *, *, #80, .F. ) ;
#260 = DIRECTION ( 'NONE',  ( 0.000000000000000000, 0.000000000000000000, 1.000000000000000000 ) ) ;
#261 = CC_DESIGN_PERSON_AND_ORGANIZATION_ASSIGNMENT ( #187, #267, ( #154 ) ) ;
#262 = VECTOR ( 'NONE', #8, 1000.000000000000000 ) ;
#263 = MANIFOLD_SOLID_BREP ( 'Ðý×', #324 ) ;
#264 = DIRECTION ( 'NONE',  ( 0.000000000000000000, 0.000000000000000000, 1.000000000000000000 ) ) ;
#265 = ORIENTED_EDGE ( 'NONE', *, *, #172, .F. ) ;
#266 = DIRECTION ( 'NONE',  ( -1.000000000000000000, -0.000000000000000000, -0.000000000000000000 ) ) ;
#267 = PERSON_AND_ORGANIZATION_ROLE ( 'creator' ) ;
#268 = CC_DESIGN_SECURITY_CLASSIFICATION ( #276, ( #86 ) ) ;
#269 = CARTESIAN_POINT ( 'NONE',  ( -3.000000000000000444, 0.000000000000000000, 10.00000000000000000 ) ) ;
#270 = DATE_TIME_ROLE ( 'classification_date' ) ;
#271 = DIRECTION ( 'NONE',  ( -1.000000000000000000, -0.000000000000000000, -0.000000000000000000 ) ) ;
#272 = ADVANCED_FACE ( 'NONE', ( #286 ), #75, .T. ) ;
#273 = CC_DESIGN_PERSON_AND_ORGANIZATION_ASSIGNMENT ( #225, #306, ( #276 ) ) ;
#274 = CARTESIAN_POINT ( 'NONE',  ( -3.000000000000000000, 0.000000000000000000, 0.000000000000000000 ) ) ;
#275 = CIRCLE ( 'NONE', #53, 12.69999999999999929 ) ;
#276 = SECURITY_CLASSIFICATION ( '', '', #91 ) ;
#277 = CARTESIAN_POINT ( 'NONE',  ( -2.500000000000000444, 10.00000000000000000, 0.000000000000000000 ) ) ;
#278 = CALENDAR_DATE ( 2020, 22, 12 ) ;
#279 = FACE_OUTER_BOUND ( 'NONE', #42, .T. ) ;
#280 = DIRECTION ( 'NONE',  ( 1.000000000000000000, 0.000000000000000000, 0.000000000000000000 ) ) ;
#281 = CIRCLE ( 'NONE', #321, 10.00000000000000000 ) ;
#282 = LINE ( 'NONE', #92, #332 ) ;
#283 = FACE_OUTER_BOUND ( 'NONE', #184, .T. ) ;
#284 = ORIENTED_EDGE ( 'NONE', *, *, #319, .F. ) ;
#285 = ORIENTED_EDGE ( 'NONE', *, *, #1, .T. ) ;
#286 = FACE_OUTER_BOUND ( 'NONE', #85, .T. ) ;
#287 = ADVANCED_FACE ( 'NONE', ( #290 ), #151, .F. ) ;
#288 = ORIENTED_EDGE ( 'NONE', *, *, #16, .F. ) ;
#289 = APPROVAL_PERSON_ORGANIZATION ( #329, #252, #217 ) ;
#290 = FACE_OUTER_BOUND ( 'NONE', #318, .T. ) ;
#291 = VECTOR ( 'NONE', #310, 1000.000000000000000 ) ;
#292 = CC_DESIGN_APPROVAL ( #204, ( #86 ) ) ;
#293 = ADVANCED_FACE ( 'NONE', ( #98, #283 ), #39, .F. ) ;
#294 = CYLINDRICAL_SURFACE ( 'NONE', #194, 10.00000000000000000 ) ;
#295 = VERTEX_POINT ( 'NONE', #123 ) ;
#296 = PRODUCT_DEFINITION_SHAPE ( 'NONE', 'NONE',  #154 ) ;
#297 = CARTESIAN_POINT ( 'NONE',  ( 3.000000000000000000, 0.000000000000000000, 0.000000000000000000 ) ) ;
#298 = ORIENTED_EDGE ( 'NONE', *, *, #147, .F. ) ;
#299 = DATE_AND_TIME ( #87, #95 ) ;
#300 =( GEOMETRIC_REPRESENTATION_CONTEXT ( 3 ) GLOBAL_UNCERTAINTY_ASSIGNED_CONTEXT ( ( #41 ) ) GLOBAL_UNIT_ASSIGNED_CONTEXT ( ( #131, #153, #15 ) ) REPRESENTATION_CONTEXT ( 'NONE', 'WORKASPACE' ) );
#301 = CARTESIAN_POINT ( 'NONE',  ( 3.000000000000000000, 0.000000000000000000, 0.000000000000000000 ) ) ;
#302 = APPLICATION_CONTEXT ( 'configuration controlled 3d designs of mechanical parts and assemblies' ) ;
#303 = ADVANCED_FACE ( 'NONE', ( #129 ), #322, .F. ) ;
#304 = DIRECTION ( 'NONE',  ( 0.000000000000000000, 0.000000000000000000, -1.000000000000000000 ) ) ;
#305 = CYLINDRICAL_SURFACE ( 'NONE', #14, 10.00000000000000000 ) ;
#306 = PERSON_AND_ORGANIZATION_ROLE ( 'classification_officer' ) ;
#307 = AXIS2_PLACEMENT_3D ( 'NONE', #170, #280, #94 ) ;
#308 = DIRECTION ( 'NONE',  ( -1.000000000000000000, -0.000000000000000000, -0.000000000000000000 ) ) ;
#309 = ADVANCED_BREP_SHAPE_REPRESENTATION ( 'Q-AZHWP-20-405-M', ( #263, #180 ), #300 ) ;
#310 = DIRECTION ( 'NONE',  ( -1.000000000000000000, -0.000000000000000000, -0.000000000000000000 ) ) ;
#311 = DIRECTION ( 'NONE',  ( -1.000000000000000000, -0.000000000000000000, -0.000000000000000000 ) ) ;
#312 = DIRECTION ( 'NONE',  ( 0.000000000000000000, 0.000000000000000000, 1.000000000000000000 ) ) ;
#313 = ORIENTED_EDGE ( 'NONE', *, *, #244, .F. ) ;
#314 = CARTESIAN_POINT ( 'NONE',  ( -1.614212418857619014, 0.000000000000000000, 0.000000000000000000 ) ) ;
#315 = VERTEX_POINT ( 'NONE', #35 ) ;
#316 = ORIENTED_EDGE ( 'NONE', *, *, #319, .T. ) ;
#317 = DIRECTION ( 'NONE',  ( -1.000000000000000000, -0.000000000000000000, -0.000000000000000000 ) ) ;
#318 = EDGE_LOOP ( 'NONE', ( #181, #81, #62, #155 ) ) ;
#319 = EDGE_CURVE ( 'NONE', #107, #55, #59, .T. ) ;
#320 = AXIS2_PLACEMENT_3D ( 'NONE', #78, #177, #158 ) ;
#321 = AXIS2_PLACEMENT_3D ( 'NONE', #205, #257, #264 ) ;
#322 = PLANE ( 'NONE',  #47 ) ;
#323 = ORIENTED_EDGE ( 'NONE', *, *, #68, .F. ) ;
#324 = CLOSED_SHELL ( 'NONE', ( #115, #229, #287, #303, #36, #218, #293, #272, #168, #72 ) ) ;
#325 = ORIENTED_EDGE ( 'NONE', *, *, #27, .T. ) ;
#326 = CC_DESIGN_DATE_AND_TIME_ASSIGNMENT ( #161, #18, ( #154 ) ) ;
#327 = APPLICATION_PROTOCOL_DEFINITION ( 'international standard', 'config_control_design', 1994, #230 ) ;
#328 = DIRECTION ( 'NONE',  ( -1.000000000000000000, -0.000000000000000000, -0.000000000000000000 ) ) ;
#329 = PERSON_AND_ORGANIZATION ( #159, #239 ) ;
#330 = FACE_OUTER_BOUND ( 'NONE', #7, .T. ) ;
#331 = PERSON_AND_ORGANIZATION ( #159, #239 ) ;
#332 = VECTOR ( 'NONE', #254, 1000.000000000000000 ) ;
#333 = APPROVAL_ROLE ( '' ) ;
#334 = CARTESIAN_POINT ( 'NONE',  ( -1.614212418857619014, 0.000000000000000000, 10.00000000000000000 ) ) ;
#335 = DIRECTION ( 'NONE',  ( -1.000000000000000000, -0.000000000000000000, -0.000000000000000000 ) ) ;
ENDSEC;
END-ISO-10303-21;
